Anders Osborne - Peace

Intro   -   Riff   1   once   or   twice]
 
[Verse   1   (Riff   1)]
Gotta   be   something   down   this   highway
Something   familiar,   someone   I   know
I'm   sick   and   tired   of   doing   it   my   way
I   need   something   sacred,   and   somewhere   slow.
 
[Chorus]
Looking   for   the   same   up   on   every   mountain
Down   on   every   beach.
Playing   all   my   songs   all   the   way   from   Woodstock
Down   to   New   Orleans
And   I'm   still   looking,   oh   I'm   looking,
Looking   for   a   day   of   peace.
 
 
[Verse   2]
Sometimes   death   it   comes   like   a   blessing
And   sometimes   big   dreams   can   kill   a   man
I've   seen   dirty   needles   turn   into   wisdom
And   I've   seen   love   I   don't   understand
 
[Chorus]
I've   been   looking   for   the   same   up   on   every   mountain
And   down   on   every   beach.
Playing   all   my   songs   all   the   way   from   Woodstock
Down   to   New   Orleans
But   I'm   still   looking,   oh   I'm   looking,
Looking   for   a   day   of   peace.
 
 
[Chorus]
I've   been   looking   for   the   same   up   on   every   mountain
And   down   on   every   beach.
Playing   all   my   songs   all   the   way   from   Woodstock
Down   to   New   Orleans
But   I'm   still   looking,   oh   I'm   looking,
Looking   for   a   day   of   peace.
 
[Riff   1   -   Intro   and   Verse   progression]
 
e|------0-0-----0-0-----0-0-----0-0-|------3-3-----3-3-----3-3-----3-3-|------0-0-----0-0-----0-0-----0-0-|
B|------1-1-----1-1-----1-1-----1-1-|------0-0-----0-0-----0-0-----0-0-|------1-1-----1-1-----1-1-----1-1-|
G|------2-2-----2-2-----2-2-----2-2-|------0-0-----0-0-----0-0-----0-0-|------2-2-----2-2-----2-2-----2-2-|
D|------2-2-----2-2-----2-2-----2-2-|------0-0-----0-0-----0-0-----0-0-|--3---3-3-3-3-3-3-----3-3-3-3-3-3-|
A|--0---0-0-0-0-0-0-0---0-0-0-0-0-0-|------2-2-----2-2-----2-2-----2-2-|----------------------------------|
E|----------------------------------|--3---3-3-3-3-3-3-3---3-3-3-3-3-3-|----------------------------------|
     ↑     ↑   ↓   ↑   ↓   ↑   ↓   ↑     ↑   ↓   ↑   ↓   ↑   ↓      ↑     ↑   ↓   ↑   ↓   ↑   ↓   ↑     ↑   ↓   ↑   ↓   ↑   ↓      ↑     ↑   ↓   ↑   ↓   ↑   ↓   ↑     ↑   ↓   ↑   ↓   ↑   ↓
     1   a   &   a   2   a   &   a   3   a   &   a   4   a   &   a      1   a   &   a   2   a   &   a   3   a   &   a   4   a   &   a      1   a   &   a   2   a   &   a   3   a   &   a   4   a   &   a
 
e|------0-0-----0-0-----3-3-----3-3-|
B|------1-1-----1-1-----0-0-----0-0-|
G|------2-2-----2-2-----0-0-----0-0-|
D|------2-2-----2-2-----0-0-----0-0-|
A|--0---0-0-0-0-0-0-----2-2-----2-2-|
E|------------------3---3-3-3-3-3-3-|
     ↑     ↑   ↓   ↑   ↓   ↑   ↓   ↑     ↑   ↓   ↑   ↓   ↑   ↓
     1   a   &   a   2   a   &   a   3   a   &   a   4   a   &   a
 
 
[Riff   2   -   Chorus]
e|------1-1-----1-1-----1-1-----1-1-|------0-0-----0-0-----3-3-----3-3-|------0-0-----0-0-----3-3-----3-3-|
B|------1-1-----1-1-----1-1-----1-1-|------1-1-----1-1-----0-0-----0-0-|------1-1-----1-1-----0-0-----0-0-|
G|------2-2-----2-2-----2-2-----2-2-|------0-0-----0-0-----0-0-----0-0-|------2-2-----2-2-----0-0-----0-0-|
D|--3---3-3-3-3-3-3-3---3-3-3-3-3-3-|------2-2-----2-2-----0-0-----0-0-|------2-2-----2-2-----0-0-----0-0-|
A|----------------------------------|--3---3-3-3-3-3-3-2---2-2-2-2-2-2-|--0---0-0-0-0-0-0-----2-2-----2-2-|
E|----------------------------------|----------------------------------|------------------3---3-3-3-3-3-3-|
     ↑     ↑   ↓   ↑   ↓   ↑   ↓   ↑     ↑   ↓   ↑   ↓   ↑   ↓      ↑     ↑   ↓   ↑   ↓   ↑   ↓   ↑     ↑   ↓   ↑   ↓   ↑   ↓      ↑     ↑   ↓   ↑   ↓   ↑   ↓   ↑     ↑   ↓   ↑   ↓   ↑   ↓
     1   a   &   a   2   a   &   a   3   a   &   a   4   a   &   a      1   a   &   a   2   a   &   a   3   a   &   a   4   a   &   a      1   a   &   a   2   a   &   a   3   a   &   a   4   a   &   a
 
 
[Riff   3   -   Coming   out   of   Chorus   (acoustic   option)]
 
e|------0-0-----0-0-----3-3-----3-3-|------0-0-----0-0-----3-3-----3-3-|
B|------1-1-----1-1-----0-0-----0-0-|------1-1-----1-1-----0-0-----0-0-|
G|------2-2-----2-2-----0-0-----0-0-|------2-2-----2-2-----0-0-----0-0-|
D|------2-2-----2-2-----0-0-----0-0-|------2-2-----2-2-----0-0-----0-0-|
A|--0---0-0-0-0-0-0-----2-2-----2-2-|--0---0-0-0-0-0-0-----2-2-----2-2-|
E|------------------3---3-3-3-3-3-3-|------------------3---3-3-3-3-3-3-|
     ↑     ↑   ↓   ↑     ↑   ↓   ↑     ↑   ↓   ↑   ↓   ↑   ↓      ↑     ↑   ↓   ↑     ↑   ↓   ↑     ↑   ↓   ↑   ↓   ↑   ↓
     1   a   &   a   2   a   &   a   3   a   &   a   4   a   &   a      1   a   &   a   2   a   &   a   3   a   &   a   4   a   &   a
 
 
[Rhythm   under   solo]
e|------0-0-----0-0-----3-3-----3-3-|------0-0-----0-0-----3-3-----3-3-|------0-0-----0-0-----3-3-----3-3-|
B|------1-1-----1-1-----0-0-----0-0-|------1-1-----1-1-----0-0-----0-0-|------1-1-----1-1-----0-0-----0-0-|
G|------2-2-----2-2-----0-0-----0-0-|------2-2-----2-2-----0-0-----0-0-|------2-2-----2-2-----0-0-----0-0-|
D|------2-2-----2-2-----0-0-----0-0-|------2-2-----2-2-----0-0-----0-0-|------2-2-----2-2-----0-0-----0-0-|
A|--0---0-0-0-0-0-0-----2-2-----2-2-|--0---0-0-0-0-0-0-----2-2-----2-2-|--0---0-0-0-0-0-0-----2-2-----2-2-|
E|------------------3---3-3-3-3-3-3-|------------------3---3-3-3-3-3-3-|------------------3---3-3-3-3-3-3-|
     ↑     ↑   ↓   ↑   ↓   ↑   ↓   ↑     ↑   ↓   ↑   ↓   ↑   ↓      ↑     ↑   ↓   ↑   ↓   ↑   ↓   ↑     ↑   ↓   ↑   ↓   ↑   ↓      ↑     ↑   ↓   ↑   ↓   ↑   ↓   ↑     ↑   ↓   ↑   ↓   ↑   ↓
     1   a   &   a   2   a   &   a   3   a   &   a   4   a   &   a      1   a   &   a   2   a   &   a   3   a   &   a   4   a   &   a      1   a   &   a   2   a   &   a   3   a   &   a   4   a   &   a
 
e|------0-0-----0-0-----3-3-----0-0-|
B|------1-1-----1-1-----0-0-----0-0-|
G|------2-2-----2-2-----0-0-----1-1-|
D|------2-2-----2-2-----0-0-----2-2-|
A|--0---0-0-0-0-0-0-----2-2-----2-2-|
E|------------------3---3-3-0-0-0-0-|
     ↑     ↑   ↓   ↑   ↓   ↑   ↓   ↑     ↑   ↓   ↑   ↓   ↑   ↓

Artist Anders Osborne Genres Rock