Against Me! - Suffocation

[Verse]
We   were   young   heartbreakers   estranged   from   our   wealthy   parents,
doing   key   bumps   in   a   handicap   bathroom.
Stoned   complacent,   ambivalent,   mass   communicating   with   shared   subconscious.
 
[Chorus]   x4
Suffocation.
Modern   life   in   the   western   world.
 
[Instrumental]
 
[Verse]
Homosexual   sons   of   unfulfilled   fathers.
Divorced   from   reality,   free   and   young.
We   were   bashing   our   brains   out   on   a   kitchen   cabinet.
It   was   a   televised   crucifixion.
 
[Chorus]   x4
Suffocation.
Modern   life   in   the   western   world.
 
[Instrumental]
 
[Bridge]
*Root   notes   are   put   in   randomly,   listen   to   the   song   for   how   many   2s(B)+5s(D)   you   need   to   play
e|-----------------------|-----------------------|
B|-----------------------|-----------------------|
G|-----------------------|-----------------------|
D|-------------2-4-2-0---|-------------2-4-2-0---|
A|2-2-2-2-2-2-2----------|2-2-2-2-2-2-2-2--------|
E|-----------------------|-----------------------|
 
e|-----------------------|-----------------------|
B|-----------------------|-----------------------|
G|-----------------------|-----------------------|
D|----------------5-7-5-4|----------------5-7-5-4|
A|5-5-5-5-5-5-5----------|5-5-5-5-5-5-5-5--------|
E|-----------------------|-----------------------|
 
[Verse]
We   were   star-crossed,   we   were   destitute.
Our   words   spoke   mass   destruction.
We   watched   the   sun   rise   in   the   morning.
Daughters   in   arm,   we   all   are   orphans.
 
[Chorus]   x4
Suffocation.
Modern   life   in   the   western   world
 
[Instrumental]
 
In   the   western   world.  
 
[Outro]

Artist Against Me! Genres Rock